0
SECTION
2
HEADER
9
$INSUNITS
70
4
9
$ACADVER
1
AC1014
9
$HANDSEED
5
FFFF
0
ENDSEC
0
SECTION
2
TABLES
0
TABLE
2
VPORT
5
8
100
AcDbSymbolTable
0
ENDTAB
0
TABLE
2
LTYPE
5
5
100
AcDbSymbolTable
0
LTYPE
5
14
100
AcDbSymbolTableRecord
100
AcDbLinetypeTableRecord
2
BYBLOCK
70
0
0
LTYPE
5
15
100
AcDbSymbolTableRecord
100
AcDbLinetypeTableRecord
2
BYLAYER
70
0
0
ENDTAB
0
TABLE
2
LAYER
5
2
100
AcDbSymbolTable
70
2
0
LAYER
5
50
100
AcDbSymbolTableRecord
100
AcDbLayerTableRecord
2
0
70
0
6
CONTINUOUS
0
ENDTAB
0
TABLE
2
STYLE
5
3
100
AcDbSymbolTable
70
1
0
STYLE
5
11
100
AcDbSymbolTableRecord
100
AcDbTextStyleTableRecord
2
STANDARD
70
0
0
ENDTAB
0
TABLE
2
VIEW
5
6
100
AcDbSymbolTable
70
0
0
ENDTAB
0
TABLE
2
UCS
5
7
100
AcDbSymbolTable
70
0
0
ENDTAB
0
TABLE
2
APPID
5
9
100
AcDbSymbolTable
70
2
0
APPID
5
12
100
AcDbSymbolTableRecord
100
AcDbRegAppTableRecord
2
ACAD
70
0
0
ENDTAB
0
TABLE
2
DIMSTYLE
5
A
100
AcDbSymbolTable
70
1
0
ENDTAB
0
TABLE
2
BLOCK_RECORD
5
1
100
AcDbSymbolTable
70
1
0
BLOCK_RECORD
5
1F
100
AcDbSymbolTableRecord
100
AcDbBlockTableRecord
2
*MODEL_SPACE
0
BLOCK_RECORD
5
1B
100
AcDbSymbolTableRecord
100
AcDbBlockTableRecord
2
*PAPER_SPACE
0
ENDTAB
0
ENDSEC
0
SECTION
2
BLOCKS
0
BLOCK
5
20
100
AcDbEntity
100
AcDbBlockBegin
2
*MODEL_SPACE
0
ENDBLK
5
21
100
AcDbEntity
100
AcDbBlockEnd
0
BLOCK
5
1C
100
AcDbEntity
100
AcDbBlockBegin
2
*PAPER_SPACE
0
ENDBLK
5
1D
100
AcDbEntity
100
AcDbBlockEnd
0
ENDSEC
0
SECTION
2
ENTITIES
0
LWPOLYLINE
5
100
100
AcDbEntity
8
0
100
AcDbPolyline
90
20
70
1
43
0.0
10
68.200000000000017
20
57.612000000000009
42
-0.41421356237309503
10
68.700000000000017
20
58.112000000000002
10
69.200000000000003
20
58.112000000000002
10
69.200000000000003
20
75.238000000000014
10
68.700000000000017
20
75.238
42
-0.41421356237309503
10
68.200000000000003
20
75.738000000000014
10
68.200000000000003
20
81.488000000000014
42
-0.41421356237309503
10
68.700000000000017
20
81.988000000000028
10
69.200000000000003
20
81.988000000000028
10
69.200000000000017
20
82.700000000000017
42
-0.41421356237309503
10
69.700000000000003
20
83.200000000000003
10
82.699999999999989
20
83.200000000000017
42
-0.41421356237309503
10
83.200000000000003
20
82.700000000000017
10
83.199999999999989
20
50.649999999999991
42
-0.41421356237309503
10
82.699999999999989
20
50.150000000000006
10
69.700000000000003
20
50.149999999999999
42
-0.41421356237309503
10
69.200000000000003
20
50.649999999999991
10
69.200000000000003
20
51.362000000000009
10
68.700000000000017
20
51.362000000000009
42
-0.41421356237309503
10
68.200000000000003
20
51.862000000000009
0
LWPOLYLINE
5
101
100
AcDbEntity
8
0
100
AcDbPolyline
90
8
70
1
43
0.0
10
26.050000000000004
20
69.700000000000003
10
26.050000000000004
20
82.700000000000017
42
0.41421356237309503
10
25.550000000000001
20
83.200000000000003
10
12.550000000000004
20
83.200000000000003
42
0.41421356237309503
10
12.050000000000002
20
82.700000000000017
10
12.050000000000002
20
69.700000000000003
42
0.41421356237309503
10
12.550000000000004
20
69.200000000000003
10
25.550000000000001
20
69.200000000000003
42
0.41421356237309503
0
CIRCLE
5
102
100
AcDbEntity
8
0
100
AcDbCircle
10
66.675000000000054
20
85.725000000000023
30
0
40
1.875
210
0
220
0
230
1
0
LWPOLYLINE
5
103
100
AcDbEntity
8
0
100
AcDbPolyline
90
8
70
1
43
0.0
10
44.600000000000009
20
112.0625
10
31.600000000000001
20
112.0625
42
-0.41421356237309503
10
31.100000000000001
20
112.5625
10
31.099999999999994
20
125.5625
42
-0.41421356237309503
10
31.600000000000001
20
126.06250000000001
10
44.600000000000009
20
126.0625
42
-0.41421356237309503
10
45.100000000000009
20
125.5625
10
45.099999999999994
20
112.5625
42
-0.41421356237309503
0
LWPOLYLINE
5
104
100
AcDbEntity
8
0
100
AcDbPolyline
90
8
70
1
43
0.0
10
79.225000000000009
20
116.82500000000002
42
-0.41421356237309503
10
78.725000000000009
20
117.325
10
78.725000000000009
20
130.32500000000002
42
-0.41421356237309503
10
79.225000000000009
20
130.82500000000002
10
92.225000000000023
20
130.82500000000002
42
-0.41421356237309503
10
92.725000000000023
20
130.32500000000002
10
92.725000000000009
20
117.325
42
-0.41421356237309503
10
92.225000000000023
20
116.82500000000002
0
LWPOLYLINE
5
105
100
AcDbEntity
8
0
100
AcDbPolyline
90
8
70
1
43
0.0
10
63.650000000000013
20
64.150000000000006
42
-0.41421356237309503
10
64.150000000000006
20
63.650000000000006
10
64.15000000000002
20
50.649999999999991
42
-0.41421356237309503
10
63.650000000000013
20
50.149999999999991
10
50.650000000000006
20
50.149999999999999
42
-0.41421356237309503
10
50.150000000000006
20
50.649999999999991
10
50.150000000000006
20
63.650000000000006
42
-0.41421356237309503
10
50.650000000000006
20
64.150000000000006
0
LWPOLYLINE
5
106
100
AcDbEntity
8
0
100
AcDbPolyline
90
20
70
1
43
0.0
10
44.600000000000009
20
26.049999999999997
42
-0.41421356237309503
10
45.100000000000009
20
25.549999999999997
10
45.100000000000016
20
12.550000000000008
42
-0.41421356237309503
10
44.600000000000009
20
12.050000000000001
10
43.888000000000005
20
12.050000000000001
10
43.888000000000019
20
11.550000000000011
42
-0.41421356237309503
10
43.388000000000005
20
11.050000000000004
10
37.638000000000005
20
11.050000000000008
42
-0.41421356237309503
10
37.138000000000005
20
11.550000000000011
10
37.138000000000005
20
12.050000000000001
10
20.012000000000004
20
12.050000000000001
10
20.012000000000008
20
11.550000000000011
42
-0.41421356237309503
10
19.512000000000004
20
11.050000000000004
10
13.762000000000004
20
11.050000000000011
42
-0.41421356237309503
10
13.262000000000002
20
11.550000000000011
10
13.262000000000002
20
12.050000000000001
10
12.550000000000004
20
12.050000000000008
42
-0.41421356237309503
10
12.050000000000002
20
12.550000000000008
10
12.049999999999997
20
25.549999999999997
42
-0.41421356237309503
10
12.550000000000004
20
26.050000000000004
0
LWPOLYLINE
5
107
100
AcDbEntity
8
0
100
AcDbPolyline
90
8
70
1
43
0.0
10
45.100000000000016
20
88.750000000000014
42
-0.41421356237309503
10
44.600000000000009
20
88.250000000000014
10
31.600000000000001
20
88.250000000000028
42
-0.41421356237309503
10
31.100000000000001
20
88.750000000000014
10
31.100000000000012
20
101.75
42
-0.41421356237309503
10
31.600000000000001
20
102.25
10
44.600000000000009
20
102.25000000000001
42
-0.41421356237309503
10
45.100000000000009
20
101.75
0
LWPOLYLINE
5
108
100
AcDbEntity
8
0
100
AcDbPolyline
90
8
70
1
43
0.0
10
25.550000000000001
20
126.06250000000001
42
-0.41421356237309503
10
26.050000000000004
20
125.5625
10
26.04999999999999
20
112.5625
42
-0.41421356237309503
10
25.550000000000001
20
112.0625
10
12.550000000000004
20
112.06249999999999
42
-0.41421356237309503
10
12.050000000000002
20
112.5625
10
12.049999999999997
20
125.5625
42
-0.41421356237309503
10
12.550000000000004
20
126.06250000000001
0
LWPOLYLINE
5
109
100
AcDbEntity
8
0
100
AcDbPolyline
90
8
70
1
43
0.0
10
50.150000000000006
20
12.550000000000008
10
50.149999999999999
20
25.549999999999997
42
-0.41421356237309503
10
50.650000000000006
20
26.050000000000004
10
63.650000000000013
20
26.049999999999997
42
-0.41421356237309503
10
64.150000000000006
20
25.549999999999997
10
64.15000000000002
20
12.550000000000008
42
-0.41421356237309503
10
63.650000000000013
20
12.050000000000001
10
50.650000000000006
20
12.05000000000001
42
-0.41421356237309503
0
LWPOLYLINE
5
110
100
AcDbEntity
8
0
100
AcDbPolyline
90
8
70
1
43
0.0
10
25.550000000000001
20
64.150000000000006
42
-0.41421356237309503
10
26.050000000000004
20
63.650000000000006
10
26.04999999999999
20
50.649999999999991
42
-0.41421356237309503
10
25.550000000000001
20
50.150000000000006
10
12.550000000000004
20
50.149999999999999
42
-0.41421356237309503
10
12.050000000000002
20
50.649999999999991
10
12.050000000000004
20
63.650000000000006
42
-0.41421356237309503
10
12.550000000000004
20
64.150000000000006
0
LWPOLYLINE
5
111
100
AcDbEntity
8
0
100
AcDbPolyline
90
8
70
1
43
0.0
10
50.650000000000006
20
112.0625
42
-0.41421356237309503
10
50.150000000000006
20
112.5625
10
50.149999999999999
20
125.5625
42
-0.41421356237309503
10
50.650000000000006
20
126.06250000000001
10
63.650000000000013
20
126.0625
42
-0.41421356237309503
10
64.150000000000006
20
125.5625
10
64.150000000000006
20
112.5625
42
-0.41421356237309503
10
63.650000000000013
20
112.0625
0
LWPOLYLINE
5
112
100
AcDbEntity
8
0
100
AcDbPolyline
90
8
70
1
43
0.0
10
63.650000000000013
20
83.200000000000003
42
-0.41421356237309503
10
64.150000000000006
20
82.700000000000017
10
64.150000000000006
20
69.700000000000003
42
-0.41421356237309503
10
63.650000000000013
20
69.200000000000003
10
50.650000000000006
20
69.200000000000003
42
-0.41421356237309503
10
50.150000000000006
20
69.700000000000003
10
50.150000000000013
20
82.700000000000017
42
-0.41421356237309503
10
50.650000000000006
20
83.200000000000003
0
LWPOLYLINE
5
113
100
AcDbEntity
8
0
100
AcDbPolyline
90
8
70
1
43
0.0
10
64.15000000000002
20
88.750000000000014
42
-0.41421356237309503
10
63.650000000000013
20
88.250000000000014
10
50.650000000000006
20
88.250000000000028
42
-0.41421356237309503
10
50.150000000000006
20
88.750000000000014
10
50.150000000000013
20
101.75
42
-0.41421356237309503
10
50.650000000000006
20
102.25
10
63.650000000000013
20
102.25000000000001
42
-0.41421356237309503
10
64.150000000000006
20
101.75
0
LWPOLYLINE
5
114
100
AcDbEntity
8
0
100
AcDbPolyline
90
8
70
1
43
0.0
10
82.699999999999989
20
102.25
10
69.700000000000003
20
102.25
42
0.41421356237309503
10
69.200000000000003
20
101.75
10
69.200000000000003
20
88.750000000000014
42
0.41421356237309503
10
69.700000000000003
20
88.250000000000014
10
82.699999999999989
20
88.250000000000014
42
0.41421356237309503
10
83.200000000000003
20
88.750000000000014
10
83.200000000000003
20
101.75
42
0.41421356237309503
0
LWPOLYLINE
5
115
100
AcDbEntity
8
0
100
AcDbPolyline
90
8
70
1
43
0.0
10
25.550000000000001
20
88.250000000000014
10
12.550000000000004
20
88.250000000000014
42
-0.41421356237309503
10
12.050000000000002
20
88.750000000000014
10
12.050000000000015
20
101.75
42
-0.41421356237309503
10
12.550000000000004
20
102.25
10
25.550000000000001
20
102.25000000000001
42
-0.41421356237309503
10
26.050000000000001
20
101.75
10
26.050000000000008
20
88.750000000000014
42
-0.41421356237309503
0
LWPOLYLINE
5
116
100
AcDbEntity
8
0
100
AcDbPolyline
90
8
70
1
43
0.0
10
44.600000000000009
20
31.099999999999994
10
31.600000000000001
20
31.100000000000001
42
-0.41421356237309503
10
31.100000000000001
20
31.600000000000001
10
31.100000000000012
20
44.600000000000009
42
-0.41421356237309503
10
31.600000000000001
20
45.099999999999994
10
44.600000000000009
20
45.100000000000009
42
-0.41421356237309503
10
45.100000000000009
20
44.600000000000009
10
45.100000000000016
20
31.600000000000001
42
-0.41421356237309503
0
LWPOLYLINE
5
117
100
AcDbEntity
8
0
100
AcDbPolyline
90
8
70
1
43
0.0
10
26.050000000000008
20
31.600000000000001
42
-0.41421356237309503
10
25.550000000000001
20
31.099999999999994
10
12.550000000000004
20
31.100000000000001
42
-0.41421356237309503
10
12.050000000000002
20
31.600000000000001
10
12.049999999999997
20
44.600000000000009
42
-0.41421356237309503
10
12.550000000000004
20
45.100000000000016
10
25.550000000000001
20
45.100000000000009
42
-0.41421356237309503
10
26.050000000000001
20
44.600000000000009
0
LWPOLYLINE
5
118
100
AcDbEntity
8
0
100
AcDbPolyline
90
20
70
1
43
0.0
10
68.700000000000017
20
13.262
10
69.200000000000003
20
13.262
10
69.200000000000003
20
12.550000000000008
42
0.41421356237309503
10
69.700000000000003
20
12.050000000000001
10
82.699999999999989
20
12.050000000000001
42
0.41421356237309503
10
83.200000000000003
20
12.550000000000008
10
83.200000000000003
20
44.600000000000009
42
0.41421356237309503
10
82.699999999999989
20
45.099999999999994
10
69.700000000000003
20
45.100000000000016
42
0.41421356237309503
10
69.200000000000003
20
44.600000000000009
10
69.200000000000003
20
43.888000000000019
10
68.700000000000017
20
43.888000000000019
42
0.41421356237309503
10
68.200000000000017
20
43.388000000000005
10
68.200000000000017
20
37.637999999999998
42
0.41421356237309503
10
68.700000000000017
20
37.137999999999991
10
69.200000000000003
20
37.137999999999991
10
69.200000000000003
20
20.012000000000008
10
68.700000000000017
20
20.012000000000008
42
0.41421356237309503
10
68.200000000000003
20
19.512
10
68.200000000000003
20
13.762000000000008
42
0.41421356237309503
0
LWPOLYLINE
5
119
100
AcDbEntity
8
0
100
AcDbPolyline
90
8
70
1
43
0.0
10
64.15000000000002
20
31.600000000000001
42
-0.41421356237309503
10
63.650000000000013
20
31.099999999999994
10
50.650000000000006
20
31.100000000000001
42
-0.41421356237309503
10
50.150000000000006
20
31.600000000000001
10
50.149999999999999
20
44.600000000000009
42
-0.41421356237309503
10
50.650000000000006
20
45.100000000000016
10
63.650000000000013
20
45.100000000000009
42
-0.41421356237309503
10
64.150000000000006
20
44.600000000000009
0
LWPOLYLINE
5
120
100
AcDbEntity
8
0
100
AcDbPolyline
90
8
70
1
43
0.0
10
45.100000000000009
20
69.700000000000003
10
45.100000000000009
20
82.700000000000017
42
0.41421356237309503
10
44.600000000000009
20
83.200000000000003
10
31.600000000000001
20
83.200000000000003
42
0.41421356237309503
10
31.100000000000001
20
82.700000000000017
10
31.100000000000001
20
69.700000000000003
42
0.41421356237309503
10
31.600000000000001
20
69.200000000000003
10
44.600000000000009
20
69.200000000000003
42
0.41421356237309503
0
LWPOLYLINE
5
121
100
AcDbEntity
8
0
100
AcDbPolyline
90
8
70
1
43
0.0
10
31.600000000000001
20
50.149999999999999
42
-0.41421356237309503
10
31.100000000000001
20
50.649999999999991
10
31.100000000000001
20
63.650000000000006
42
-0.41421356237309503
10
31.600000000000001
20
64.150000000000006
10
44.600000000000009
20
64.150000000000006
42
-0.41421356237309503
10
45.100000000000009
20
63.650000000000006
10
45.100000000000016
20
50.649999999999991
42
-0.41421356237309503
10
44.600000000000009
20
50.149999999999991
0
ARC
5
122
100
AcDbEntity
8
0
100
AcDbCircle
10
11.050000000000004
20
11.050000000000004
30
0
40
2.0000000000000009
210
0
220
0
230
1
100
AcDbArc
50
180
51
270
0
LINE
5
123
100
AcDbEntity
8
0
100
AcDbLine
10
67.61785793533393
20
129.06250000000003
30
0
11
11.049999999999979
21
129.0625
31
0
0
LINE
5
124
100
AcDbEntity
8
0
100
AcDbLine
10
11.050000000000004
20
9.0500000000000043
30
0
11
84.200000000000017
21
9.0499999999999972
31
0
0
ARC
5
125
100
AcDbEntity
8
0
100
AcDbCircle
10
84.200000000000017
20
11.049999999999995
30
0
40
1.9999999999999973
210
0
220
0
230
1
100
AcDbArc
50
-90
51
0
0
ARC
5
126
100
AcDbEntity
8
0
100
AcDbCircle
10
85.725000000000023
20
123.825
30
0
40
17.499999999999996
210
0
220
0
230
1
100
AcDbArc
50
-82.708175359595074
51
158.21320442808286
0
LINE
5
127
100
AcDbEntity
8
0
100
AcDbLine
10
86.200000000000017
20
11.049999999999995
30
0
11
86.200000000000045
21
104.48270502241269
31
0
0
ARC
5
128
100
AcDbEntity
8
0
100
AcDbCircle
10
88.200000000000017
20
104.4827050224127
30
0
40
1.9999999999999782
210
0
220
0
230
1
100
AcDbArc
50
97.29182464040511
51
180
0
ARC
5
129
100
AcDbEntity
8
0
100
AcDbCircle
10
67.617857935333959
20
131.0625
30
0
40
1.9999999999999751
210
0
220
0
230
1
100
AcDbArc
50
269.9999999999992
51
338.21320442808263
0
LINE
5
130
100
AcDbEntity
8
0
100
AcDbLine
10
9.0500000000000043
20
127.06250000000003
30
0
11
9.0500000000000043
21
11.050000000000004
31
0
0
ARC
5
131
100
AcDbEntity
8
0
100
AcDbCircle
10
11.049999999999979
20
127.06250000000003
30
0
40
1.9999999999999751
210
0
220
-0
230
1
100
AcDbArc
50
90
51
180
0
CIRCLE
5
132
100
AcDbEntity
8
0
100
AcDbCircle
10
28.575000000000035
20
107.15625000000001
30
0
40
1.875
210
0
220
0
230
1
0
CIRCLE
5
133
100
AcDbEntity
8
0
100
AcDbCircle
10
28.575000000000035
20
47.625000000000036
30
0
40
1.875
210
0
220
0
230
1
0
CIRCLE
5
134
100
AcDbEntity
8
0
100
AcDbCircle
10
66.675000000000054
20
47.625000000000036
30
0
40
1.875
210
0
220
0
230
1
0
ENDSEC
0
SECTION
2
OBJECTS
0
DICTIONARY
5
C
100
AcDbDictionary
3
ACAD_GROUP
350
D
3
ACAD_MLINESTYLE
350
17
0
DICTIONARY
5
D
100
AcDbDictionary
0
DICTIONARY
5
1A
330
C
100
AcDbDictionary
0
DICTIONARY
5
17
100
AcDbDictionary
0
ENDSEC
0
EOF
